ISO-10303-21;
HEADER;
FILE_DESCRIPTION (( 'STEP AP203' ),
    '1' );
FILE_NAME ('QB-CTZQWP-50.8-1310-M.STEP',
    '2020-12-24T01:52:35',
    ( '' ),
    ( '' ),
    'SwSTEP 2.0',
    'SolidWorks 2020',
    '' );
FILE_SCHEMA (( 'CONFIG_CONTROL_DESIGN' ));
ENDSEC;

DATA;
#1 = ORIENTED_EDGE ( 'NONE', *, *, #9, .F. ) ;
#2 = EDGE_LOOP ( 'NONE', ( #113, #88 ) ) ;
#3 = DIRECTION ( 'NONE',  ( -1.000000000000000000, -0.000000000000000000, -0.000000000000000000 ) ) ;
#4 =( LENGTH_UNIT ( ) NAMED_UNIT ( * ) SI_UNIT ( .MILLI., .METRE. ) );
#5 = CIRCLE ( 'NONE', #104, 25.39999999999999858 ) ;
#6 = CC_DESIGN_APPROVAL ( #117, ( #67 ) ) ;
#7 = CARTESIAN_POINT ( 'NONE',  ( -3.000000000000002665, 0.000000000000000000, 0.000000000000000000 ) ) ;
#8 = MANIFOLD_SOLID_BREP ( 'Ðý×', #112 ) ;
#9 = EDGE_CURVE ( 'NONE', #111, #146, #164, .T. ) ;
#10 = DIRECTION ( 'NONE',  ( 0.000000000000000000, 0.000000000000000000, -1.000000000000000000 ) ) ;
#11 = DATE_AND_TIME ( #170, #101 ) ;
#12 = APPROVAL_DATE_TIME ( #11, #47 ) ;
#13 = AXIS2_PLACEMENT_3D ( 'NONE', #151, #127, #81 ) ;
#14 = CALENDAR_DATE ( 2020, 24, 12 ) ;
#15 = APPROVAL_DATE_TIME ( #27, #106 ) ;
#16 = EDGE_LOOP ( 'NONE', ( #75, #98, #59, #17 ) ) ;
#17 = ORIENTED_EDGE ( 'NONE', *, *, #172, .F. ) ;
#18 = CARTESIAN_POINT ( 'NONE',  ( -3.000000000000001332, 25.39999999999999858, 0.000000000000000000 ) ) ;
#19 = CC_DESIGN_DATE_AND_TIME_ASSIGNMENT ( #84, #131, ( #67 ) ) ;
#20 = DIRECTION ( 'NONE',  ( 1.000000000000000000, 0.000000000000000000, 0.000000000000000000 ) ) ;
#21 = CC_DESIGN_PERSON_AND_ORGANIZATION_ASSIGNMENT ( #37, #83, ( #67 ) ) ;
#22 = DIRECTION ( 'NONE',  ( -1.000000000000000000, 0.000000000000000000, -0.000000000000000000 ) ) ;
#23 = DIRECTION ( 'NONE',  ( 0.000000000000000000, 0.000000000000000000, 1.000000000000000000 ) ) ;
#24 = APPROVAL_PERSON_ORGANIZATION ( #144, #106, #173 ) ;
#25 = APPROVAL_STATUS ( 'not_yet_approved' ) ;
#26 = CARTESIAN_POINT ( 'NONE',  ( 0.000000000000000000, 0.000000000000000000, 0.000000000000000000 ) ) ;
#27 = DATE_AND_TIME ( #143, #39 ) ;
#28 = SHAPE_DEFINITION_REPRESENTATION ( #152, #99 ) ;
#29 = ORIENTED_EDGE ( 'NONE', *, *, #162, .F. ) ;
#30 = CC_DESIGN_DATE_AND_TIME_ASSIGNMENT ( #42, #96, ( #52 ) ) ;
#31 = DIRECTION ( 'NONE',  ( 0.000000000000000000, 0.000000000000000000, 1.000000000000000000 ) ) ;
#32 = AXIS2_PLACEMENT_3D ( 'NONE', #138, #22, #89 ) ;
#33 = CARTESIAN_POINT ( 'NONE',  ( -3.000000000000002665, 0.000000000000000000, 0.000000000000000000 ) ) ;
#34 = LINE ( 'NONE', #91, #158 ) ;
#35 = ORGANIZATION ( 'UNSPECIFIED', 'UNSPECIFIED', '' ) ;
#36 =( NAMED_UNIT ( * ) PLANE_ANGLE_UNIT ( ) SI_UNIT ( $, .RADIAN. ) );
#37 = PERSON_AND_ORGANIZATION ( #139, #35 ) ;
#38 = CALENDAR_DATE ( 2020, 24, 12 ) ;
#39 = LOCAL_TIME ( 9, 52, 35.00000000000000000, #94 ) ;
#40 = ADVANCED_FACE ( 'NONE', ( #159 ), #149, .T. ) ;
#41 = VERTEX_POINT ( 'NONE', #163 ) ;
#42 = DATE_AND_TIME ( #135, #71 ) ;
#43 = PRODUCT_DEFINITION_FORMATION_WITH_SPECIFIED_SOURCE ( 'ANY', '', #169, .NOT_KNOWN. ) ;
#44 = ORIENTED_EDGE ( 'NONE', *, *, #109, .F. ) ;
#45 = DIRECTION ( 'NONE',  ( 0.000000000000000000, 0.000000000000000000, 1.000000000000000000 ) ) ;
#46 = APPLICATION_CONTEXT ( 'configuration controlled 3d designs of mechanical parts and assemblies' ) ;
#47 = APPROVAL ( #132, 'UNSPECIFIED' ) ;
#48 = CARTESIAN_POINT ( 'NONE',  ( 3.000000000000002665, 0.000000000000000000, 0.000000000000000000 ) ) ;
#49 = CC_DESIGN_PERSON_AND_ORGANIZATION_ASSIGNMENT ( #142, #55, ( #169 ) ) ;
#50 = AXIS2_PLACEMENT_3D ( 'NONE', #7, #76, #125 ) ;
#51 = DIRECTION ( 'NONE',  ( -1.000000000000000000, -0.000000000000000000, -0.000000000000000000 ) ) ;
#52 = SECURITY_CLASSIFICATION ( '', '', #107 ) ;
#53 = EDGE_CURVE ( 'NONE', #146, #41, #116, .T. ) ;
#54 = PERSON_AND_ORGANIZATION ( #139, #35 ) ;
#55 = PERSON_AND_ORGANIZATION_ROLE ( 'design_owner' ) ;
#56 = CC_DESIGN_SECURITY_CLASSIFICATION ( #52, ( #43 ) ) ;
#57 = PERSON_AND_ORGANIZATION ( #139, #35 ) ;
#58 = PERSON_AND_ORGANIZATION_ROLE ( 'design_supplier' ) ;
#59 = ORIENTED_EDGE ( 'NONE', *, *, #109, .T. ) ;
#60 = DESIGN_CONTEXT ( 'detailed design', #73, 'design' ) ;
#61 = CARTESIAN_POINT ( 'NONE',  ( 3.000000000000002665, 0.000000000000000000, 25.39999999999999858 ) ) ;
#62 = CARTESIAN_POINT ( 'NONE',  ( -3.000000000000000000, 0.000000000000000000, 0.000000000000000000 ) ) ;
#63 = EDGE_CURVE ( 'NONE', #146, #111, #5, .T. ) ;
#64 = VECTOR ( 'NONE', #140, 1000.000000000000000 ) ;
#65 = FACE_OUTER_BOUND ( 'NONE', #161, .T. ) ;
#66 = PERSON_AND_ORGANIZATION_ROLE ( 'classification_officer' ) ;
#67 = PRODUCT_DEFINITION ( 'UNKNOWN', '', #43, #60 ) ;
#68 = PERSON_AND_ORGANIZATION_ROLE ( 'creator' ) ;
#69 = PRODUCT_RELATED_PRODUCT_CATEGORY ( 'detail', '', ( #169 ) ) ;
#70 = COORDINATED_UNIVERSAL_TIME_OFFSET ( 8, 0, .AHEAD. ) ;
#71 = LOCAL_TIME ( 9, 52, 35.00000000000000000, #168 ) ;
#72 = APPROVAL_ROLE ( '' ) ;
#73 = APPLICATION_CONTEXT ( 'configuration controlled 3d designs of mechanical parts and assemblies' ) ;
#74 = ORIENTED_EDGE ( 'NONE', *, *, #53, .T. ) ;
#75 = ORIENTED_EDGE ( 'NONE', *, *, #53, .F. ) ;
#76 = DIRECTION ( 'NONE',  ( -1.000000000000000000, -0.000000000000000000, -0.000000000000000000 ) ) ;
#77 = AXIS2_PLACEMENT_3D ( 'NONE', #124, #148, #31 ) ;
#78 = FACE_OUTER_BOUND ( 'NONE', #16, .T. ) ;
#79 = CC_DESIGN_PERSON_AND_ORGANIZATION_ASSIGNMENT ( #157, #66, ( #52 ) ) ;
#80 = CARTESIAN_POINT ( 'NONE',  ( 3.000000000000002665, 3.110602869834276865E-15, -25.39999999999999858 ) ) ;
#81 = DIRECTION ( 'NONE',  ( 0.000000000000000000, 0.000000000000000000, 1.000000000000000000 ) ) ;
#82 = DIRECTION ( 'NONE',  ( 1.000000000000000000, 0.000000000000000000, 0.000000000000000000 ) ) ;
#83 = PERSON_AND_ORGANIZATION_ROLE ( 'creator' ) ;
#84 = DATE_AND_TIME ( #38, #97 ) ;
#85 = APPLICATION_PROTOCOL_DEFINITION ( 'international standard', 'config_control_design', 1994, #46 ) ;
#86 = APPROVAL_PERSON_ORGANIZATION ( #171, #47, #72 ) ;
#87 = MECHANICAL_CONTEXT ( 'NONE', #46, 'mechanical' ) ;
#88 = ORIENTED_EDGE ( 'NONE', *, *, #172, .T. ) ;
#89 = DIRECTION ( 'NONE',  ( -0.000000000000000000, 0.000000000000000000, 1.000000000000000000 ) ) ;
#90 = FACE_OUTER_BOUND ( 'NONE', #2, .T. ) ;
#91 = CARTESIAN_POINT ( 'NONE',  ( -3.000000000000000000, 0.000000000000000000, 25.39999999999999858 ) ) ;
#92 = APPROVAL_DATE_TIME ( #153, #117 ) ;
#93 = UNCERTAINTY_MEASURE_WITH_UNIT (LENGTH_MEASURE( 1.000000000000000082E-05 ), #4, 'distance_accuracy_value', 'NONE');
#94 = COORDINATED_UNIVERSAL_TIME_OFFSET ( 8, 0, .AHEAD. ) ;
#95 = CIRCLE ( 'NONE', #123, 25.39999999999999858 ) ;
#96 = DATE_TIME_ROLE ( 'classification_date' ) ;
#97 = LOCAL_TIME ( 9, 52, 35.00000000000000000, #70 ) ;
#98 = ORIENTED_EDGE ( 'NONE', *, *, #63, .T. ) ;
#99 = ADVANCED_BREP_SHAPE_REPRESENTATION ( 'QB-CTZQWP-50.8-1310-M', ( #8, #175 ), #120 ) ;
#100 = CARTESIAN_POINT ( 'NONE',  ( -3.000000000000002665, 0.000000000000000000, 25.39999999999999858 ) ) ;
#101 = LOCAL_TIME ( 9, 52, 35.00000000000000000, #119 ) ;
#102 = DIRECTION ( 'NONE',  ( 0.000000000000000000, 0.000000000000000000, 1.000000000000000000 ) ) ;
#103 = COORDINATED_UNIVERSAL_TIME_OFFSET ( 8, 0, .AHEAD. ) ;
#104 = AXIS2_PLACEMENT_3D ( 'NONE', #48, #51, #102 ) ;
#105 = CC_DESIGN_APPROVAL ( #47, ( #43 ) ) ;
#106 = APPROVAL ( #110, 'UNSPECIFIED' ) ;
#107 = SECURITY_CLASSIFICATION_LEVEL ( 'unclassified' ) ;
#108 = VERTEX_POINT ( 'NONE', #100 ) ;
#109 = EDGE_CURVE ( 'NONE', #111, #108, #34, .T. ) ;
#110 = APPROVAL_STATUS ( 'not_yet_approved' ) ;
#111 = VERTEX_POINT ( 'NONE', #61 ) ;
#112 = CLOSED_SHELL ( 'NONE', ( #40, #167, #155, #147 ) ) ;
#113 = ORIENTED_EDGE ( 'NONE', *, *, #162, .T. ) ;
#114 = DIRECTION ( 'NONE',  ( -1.000000000000000000, -0.000000000000000000, -0.000000000000000000 ) ) ;
#115 = DIRECTION ( 'NONE',  ( -1.000000000000000000, -0.000000000000000000, -0.000000000000000000 ) ) ;
#116 = LINE ( 'NONE', #166, #64 ) ;
#117 = APPROVAL ( #25, 'UNSPECIFIED' ) ;
#118 = PERSON_AND_ORGANIZATION ( #139, #35 ) ;
#119 = COORDINATED_UNIVERSAL_TIME_OFFSET ( 8, 0, .AHEAD. ) ;
#120 =( GEOMETRIC_REPRESENTATION_CONTEXT ( 3 ) GLOBAL_UNCERTAINTY_ASSIGNED_CONTEXT ( ( #93 ) ) GLOBAL_UNIT_ASSIGNED_CONTEXT ( ( #4, #36, #156 ) ) REPRESENTATION_CONTEXT ( 'NONE', 'WORKASPACE' ) );
#121 = CC_DESIGN_APPROVAL ( #106, ( #52 ) ) ;
#122 = ORIENTED_EDGE ( 'NONE', *, *, #9, .T. ) ;
#123 = AXIS2_PLACEMENT_3D ( 'NONE', #33, #114, #45 ) ;
#124 = CARTESIAN_POINT ( 'NONE',  ( 3.000000000000002665, 0.000000000000000000, 0.000000000000000000 ) ) ;
#125 = DIRECTION ( 'NONE',  ( 0.000000000000000000, 0.000000000000000000, 1.000000000000000000 ) ) ;
#126 = CYLINDRICAL_SURFACE ( 'NONE', #13, 25.39999999999999858 ) ;
#127 = DIRECTION ( 'NONE',  ( -1.000000000000000000, -0.000000000000000000, -0.000000000000000000 ) ) ;
#128 = CC_DESIGN_PERSON_AND_ORGANIZATION_ASSIGNMENT ( #57, #68, ( #43 ) ) ;
#129 = DIRECTION ( 'NONE',  ( 0.000000000000000000, 0.000000000000000000, 1.000000000000000000 ) ) ;
#130 = CIRCLE ( 'NONE', #50, 25.39999999999999858 ) ;
#131 = DATE_TIME_ROLE ( 'creation_date' ) ;
#132 = APPROVAL_STATUS ( 'not_yet_approved' ) ;
#133 = APPLICATION_PROTOCOL_DEFINITION ( 'international standard', 'config_control_design', 1994, #73 ) ;
#134 = LOCAL_TIME ( 9, 52, 35.00000000000000000, #103 ) ;
#135 = CALENDAR_DATE ( 2020, 24, 12 ) ;
#136 = AXIS2_PLACEMENT_3D ( 'NONE', #62, #3, #129 ) ;
#137 = EDGE_LOOP ( 'NONE', ( #122, #74, #29, #44 ) ) ;
#138 = CARTESIAN_POINT ( 'NONE',  ( 3.000000000000001332, 25.39999999999999858, 0.000000000000000000 ) ) ;
#139 = PERSON ( 'UNSPECIFIED', 'UNSPECIFIED', 'UNSPECIFIED', ('UNSPECIFIED'), ('UNSPECIFIED'), ('UNSPECIFIED') ) ;
#140 = DIRECTION ( 'NONE',  ( -1.000000000000000000, -0.000000000000000000, -0.000000000000000000 ) ) ;
#141 = PLANE ( 'NONE',  #174 ) ;
#142 = PERSON_AND_ORGANIZATION ( #139, #35 ) ;
#143 = CALENDAR_DATE ( 2020, 24, 12 ) ;
#144 = PERSON_AND_ORGANIZATION ( #139, #35 ) ;
#145 = ORIENTED_EDGE ( 'NONE', *, *, #63, .F. ) ;
#146 = VERTEX_POINT ( 'NONE', #80 ) ;
#147 = ADVANCED_FACE ( 'NONE', ( #90 ), #141, .F. ) ;
#148 = DIRECTION ( 'NONE',  ( -1.000000000000000000, -0.000000000000000000, -0.000000000000000000 ) ) ;
#149 = CYLINDRICAL_SURFACE ( 'NONE', #136, 25.39999999999999858 ) ;
#150 = PLANE ( 'NONE',  #32 ) ;
#151 = CARTESIAN_POINT ( 'NONE',  ( -3.000000000000000000, 0.000000000000000000, 0.000000000000000000 ) ) ;
#152 = PRODUCT_DEFINITION_SHAPE ( 'NONE', 'NONE',  #67 ) ;
#153 = DATE_AND_TIME ( #14, #134 ) ;
#154 = APPROVAL_ROLE ( '' ) ;
#155 = ADVANCED_FACE ( 'NONE', ( #65 ), #150, .F. ) ;
#156 =( NAMED_UNIT ( * ) SI_UNIT ( $, .STERADIAN. ) SOLID_ANGLE_UNIT ( ) );
#157 = PERSON_AND_ORGANIZATION ( #139, #35 ) ;
#158 = VECTOR ( 'NONE', #115, 1000.000000000000000 ) ;
#159 = FACE_OUTER_BOUND ( 'NONE', #137, .T. ) ;
#160 = CC_DESIGN_PERSON_AND_ORGANIZATION_ASSIGNMENT ( #118, #58, ( #43 ) ) ;
#161 = EDGE_LOOP ( 'NONE', ( #1, #145 ) ) ;
#162 = EDGE_CURVE ( 'NONE', #108, #41, #95, .T. ) ;
#163 = CARTESIAN_POINT ( 'NONE',  ( -3.000000000000002665, 3.110602869834276865E-15, -25.39999999999999858 ) ) ;
#164 = CIRCLE ( 'NONE', #77, 25.39999999999999858 ) ;
#165 = APPROVAL_PERSON_ORGANIZATION ( #54, #117, #154 ) ;
#166 = CARTESIAN_POINT ( 'NONE',  ( -3.000000000000000000, 3.110602869834276865E-15, -25.39999999999999858 ) ) ;
#167 = ADVANCED_FACE ( 'NONE', ( #78 ), #126, .T. ) ;
#168 = COORDINATED_UNIVERSAL_TIME_OFFSET ( 8, 0, .AHEAD. ) ;
#169 = PRODUCT ( 'QB-CTZQWP-50.8-1310-M', 'QB-CTZQWP-50.8-1310-M', '', ( #87 ) ) ;
#170 = CALENDAR_DATE ( 2020, 24, 12 ) ;
#171 = PERSON_AND_ORGANIZATION ( #139, #35 ) ;
#172 = EDGE_CURVE ( 'NONE', #41, #108, #130, .T. ) ;
#173 = APPROVAL_ROLE ( '' ) ;
#174 = AXIS2_PLACEMENT_3D ( 'NONE', #18, #20, #10 ) ;
#175 = AXIS2_PLACEMENT_3D ( 'NONE', #26, #23, #82 ) ;
ENDSEC;
END-ISO-10303-21;
